Bayu Pratama's

Twitter : @maasbaay

Check out !


Bergimbira dengannya, tidak ada yang perlu dilakukan.

Hanya apa yang ingin dilakukan. - Bayu Pratama

Tab Ungu Band

"Andai Ku Tahu"

Song: Andai ku Tahu

Artist: Ungu


TUNING: STANDARD EADGBe


intro:

e|-----5-----5----------|-----5-----5------------|-----5-----5------------|-----5-----5----------|

B|-------5-----5--------|-------5-----5----------|-------5-----5----------|-------5-----5--------|

G|----------------------|------------------------|------------------------|----------------------|

D|---7-----7-----7------|---7-----7-----7--------|---7-----7-----7--------|---7-----7-----7------|

A|-0--------------------|-0----------------------|-0----------------------|-0--------------------|

E|----------------------|------------------------|------------------------|----------------------|

Verse 1:

e|------5-----5---------|------5-----5-----------|------7-----7-----------|------7-----7---------|

B|--------5-----5-------|--------5-----5---------|--------7-----7---------|--------7-----7-------|

G|----------------------|------------------------|----------7-----7-------|----------7-----7-----|

D|----7-----7-----7-----|----7-----7-----7-------|------------------------|----------------------|

A|--0-------------------|--0---------------------|----9-------------------|----9-----------------|

E|----------------------|------------------------|--7---------------------|--7-------------------|

Andai ku tahu kapan tiba ajalku


e|------7-----7---------|------7-----7-----------|------5-----5-----------|------5-----5---------|

B|--------7-----7-------|--------7-----7---------|--------5-----5---------|--------5-----5-------|

G|----------7-----7-----|----------7-----7-------|------------------------|----------------------|

D|----------------------|------------------------|----7-----7-----7-------|----7-----7-----7-----|

A|----9-----------------|----9-------------------|--0---------------------|--0-------------------|

E|--7-------------------|--7---------------------|------------------------|----------------------|

Kuakan memohon Tuhan tolong panjangkan umurku


e|------5-----5---------|------5-----5-----------|------7-----7-----------|------7-----7---------|

B|--------5-----5-------|--------5-----5---------|--------7-----7---------|--------7-----7-------|

G|----------------------|------------------------|----------7-----7-------|----------7-----7-----|

D|----7-----7-----7-----|----7-----7-----7-------|------------------------|----------------------|

A|--0-------------------|--0---------------------|----9-------------------|----9-----------------|

E|----------------------|------------------------|--7---------------------|--7-------------------|

Andai ku tahu kapan tiba masaku


e|------7-----7---------|------7-----7-----------|------5-----5-----------|------5-----5---------|

B|--------7-----7-------|--------7-----7---------|--------5-----5---------|--------5-----5-------|

G|----------7-----7-----|----------7-----7-------|------------------------|----------------------|

D|----------------------|------------------------|----7-----7-----7-------|----7-----7-----7-----|

A|----9-----------------|----9-------------------|--0---------------------|--0-------------------|

E|--7-------------------|--7---------------------|------------------------|----------------------|

Kuakan memohon Tuhan jangan Kau ambil nyawaku


e|------5-----5---------|------5-----5-----------|------7-----7-----------|------7-----7---------|

B|--------5-----5-------|--------5-----5---------|--------7-----7---------|--------7-----7-------|

G|----------------------|------------------------|----------7-----7-------|----------7-----7-----|

D|----7-----7-----7-----|----7-----7-----7-------|------------------------|----------------------|

A|--0-------------------|--0---------------------|----9-------------------|----9-----------------|

E|----------------------|------------------------|--7---------------------|--7-------------------|

Aku takut akan semua dosa-dosaku


e|------7-----7---------|------7-----7-----------|------5-----5-----------|------5-----5---------|

B|--------7-----7-------|--------7-----7---------|------------------------|--------5-----5-------|

G|----------7-----7-----|----------7-----7-------|------------------------|----------------------|

D|----------------------|------------------------|----7-----7-----7-------|----7-----7-----7-----|

A|----9-----------------|----9-------------------|--0---------------------|--0-------------------|

E|--7-------------------|--7---------------------|------------------------|----------------------|

Aku takut dosa yang terus membayangiku



solo:


e|------------------------|-------------------------------|-------------------------------|

B|-10-10-9-9-7-7-9-9------|-12--12--10--10--9--9--10--10--|-12--12--10--10--9--9--10--10--|

G|---9--9-9-9-9-9-9-9-----|---11--11--11--11-11-11--11--11|---11--11--11--11-11-11--11--11|

D|------------------------|-------------------------------|-------------------------------|

A|------------------------|-------------------------------|-------------------------------|

E|------------------------|-------------------------------|-------------------------------|


e|------------------------|

B|-10-10-9-9-7-7-9-9------|

G|---9--9-9-9-9-9-9-9-----|

D|------------------------|

A|------------------------|

E|------------------------|


verse2:

A Bm E A


Chorus:

A Bm E A (2x)


Bridge:


e|--------------------|-2-2-2-2-2-2-2-2----|-------------------|-------------------|

B|--------------------|-3-3-3-3-3-3-3-3----|-------------------|-2-2-2-2-2-2-2-2---|

G|--------------------|-4-4-4-4-4-4-4-4----|-1-1-1-11-1-1-1----|-2-2-2-2-2-2-2-2---|

D|-4-4-4-4-4-4-4-4----|-4-4-4-4-4-4-4-4----|-2-2-2-2-2-2-2-2---|-2-2-2-2-2-2-2-2---|

A|-4-4-4-4-4-4-4-4----|-2-2-2-2-2-2-2-2----|-2-2-2-2-2-2-2-2---|-------------------|

E|-2-2-2-2-2-2-2-2----|--------------------|-------------------|-------------------|

Aku manusia... yang takut neraka..


e|--------------------|-2-2-2-2-2-2-2-2----|-------------------|------------------|

B|--------------------|-3-3-3-3-3-3-3-3----|-------------------|------------------|

G|--------------------|-4-4-4-4-4-4-4-4----|-1-1-1-1-1-1-1-1---|-1-1-1-1-1-1-1-1--|

D|-4-4-4-4-4-4-4-4----|-4-4-4-4-4-4-4-4----|-2-2-2-2-2-2-2-2---|-2-2-2-2-2-2-2-2--|

A|-4-4-4-4-4-4-4-4----|-2-2-2-2-2-2-2-2----|-2-2-2-2-2-2-2-2---|-2-2-2-2-2-2-2-2--|

E|-2-2-2-2-2-2-2-2----|--------------------|-------------------|------------------|

Namun aku juga... tak pantas di surga....


verse1

chorus

outro(same like solo)





"Berikan Aku Cinta"

Intro : (repeat several times)


e|----------------------------------------------------------|

B|----------------------------------------------------------|

G|--9/7/9---7/9---7/9/11/9/7-7------------------------------|

D|--xxxxx---xxx---xxxxxxxxxxxx------------------------------|

A|--7/5/7---5/7---5/7/9/7/5--5------------------------------|

E|----------------------------------------------------------|


Verse 1 : (BAR chords) D B G A [you can improvise this easily]


Part When Wah Pedal is used (repeat several times)


e|-------------------------------------------------------|

B|-------------------------------------------------------|

G|---7-7-7~--xxxx-7--------------------------------------|

D|---7-7-7~--xxxx-7--------------------------------------|

A|-------------------------------------------------------|

E|-------------------------------------------------------|

oooo


Chorus 1 : (BAR chords) D E B A [you can improvise this easily]


After 1st chorus, repeat Intro once. Then repeat this Part


e|-------------------------------------------------------|

B|-------------------------------------------------------|

G|---7-7-7~--xxxx-7--------------------------------------|

D|---7-7-7~--xxxx-7--------------------------------------|

A|-------------------------------------------------------|

E|-------------------------------------------------------|

oooo


along with that part play with these BAR chords (D B G A) twice.

Then you repeat the chorus (BAR chords) D E B A


SOLO : Play with the same chords as chorus. havnt got time to make the solo. hehehe will put on soon.


Repeat Chorus (BAR chords) D E B A


Outro :


e|-----------------17~----------15-14--------------------|

B|--15-15-14-15-14-----14-14-14------15-12~--------------|

G|-------------------------------------------------------|

D|-------------------------------------------------------|

A|-------------------------------------------------------|

E|-------------------------------------------------------|

^ ^ ^


e|-------------------------------------------------------|

B|--15-15-14-15-15-14-12~--------------------------------|

G|-------------------------------------------------------|

D|-------------------------------------------------------|

A|-------------------------------------------------------|

E|-------------------------------------------------------|


e|-----------------17~----------15-14--------------------|

B|--15-15-14-15-14-----15-15p14-------15-12~-------------|

G|-------------------------------------------------------|

D|-------------------------------------------------------|

A|-------------------------------------------------------|

E|-------------------------------------------------------|



NOTE:


^ = Note that you cant hear properly

o = Wah Note



hehe!! ive been playing guitar for 2 years now, but i still suck at it! hehe!! enjoy..

rate!





"Cinta Dalam Hati"

Ungu - Cinta Dalam Hati



Used Tab Symbols

#####################

h = Hammer On

p = Pull Off

~ = Sustain

v = Vibrato

w = Wide Vibrato

b = Bend Up

hb = Bend Halfway

/ = Slide Up

\ = Slide Down

* = Trill

x = Muted Note

H = Harmonic

t = Right Hand Tap

: = Let Ring

#####################


[Solo Tab]

#########################################


Bagian 1

e|--------------------------------------13----------------------------------------|

B|-----------------------------10--10/15--13/15-----------------------------------|

G|--------12--12/14-14p12-10-10--10-----------------------------------------------|

D|------12--12--------------------------------------------------------------------|

A|--------------------------------------------------------------------------------|

E|--------------------------------------------------------------------------------|


Bagian 2

e|-13-12p13-----------------------------------13/15-15-13-15/17-17-18-15p17p15-13-|

B|---------14-14-13-13-11-11-13p11-10-11-11-13------------------------------------|

G|--------------------------------------------------------------------------------|

D|--------------------------------------------------------------------------------|

A|--------------------------------------------------------------------------------|

E|--------------------------------------------------------------------------------|


Bagian 3

e|--------------------------------------------------------------------------------|

B|--------------------------------------------------------------------------------|

G|----------15--------------14-15p14-12-------------------------------------------|

D|--12-11-12--12-12-12-11-12------------------------------------------------------|

A|--------------------------------------------------------------------------------|

E|--------------------------------------------------------------------------------|





"Saat Indah Bersamamu"

Ungu - Saat Indah Bersamamu



[int Tab]


E|----------------------------------------------------------------------12/14----|

B|-------15-14-15-12----15-14-15--15-14-15-15/17-15~14-15--14~15-15/17--------15-|

G|--9/11-------------------------------------------------------------------------|

D|-------------------------------------------------------------------------------|

A|-------------------------------------------------------------------------------|

E|-------------------------------------------------------------------------------|



E|----------------------------------------------------------15-------15----------|

B|-----15-------------15--14-12----------14-----------14-------14-------14----14-|

G|-12--12---11--12/14-----------14-14/16----14--12/14----14-------14-------14----|

D|-------------------------------------------------------------------------------|

A|-------------------------------------------------------------------------------|

E|-------------------------------------------------------------------------------|



E|------------12----14----12--------10----10-------------------------------------|

B|------15----------------------15--10----10-10/12--10-10/12-\10-----------------|

G|-9/11----11----11----11----11--------11-11---------9--9/11-\9--9-7-7/9-7-------|

D|-------------------------------------------------------------------------9-----|

A|-------------------------------------------------------------------------------|

E|-------------------------------------------------------------------------------|



E|---------10-10---------------------------------------9-10-9--------------------|

B|-12--12-------------------------------------------10--------10-----------------|

G|-11--11--------11\9-9-9/11-9--------------------7--------------9-11-9-11-9-----|

D|-----------------------------9--8--10--12----------------------------------7---|

A|-------------------------------------------------------------------------------|

E|-------------------------------------------------------------------------------|



to:[reff]


[ending] D...




Artikel Terkait:

2 komentar:

  1. Anonim mengatakan...
     

    Kalo Lagu ungu yang aku datang untuk mencintaimu?
    PLEASE BGT Kirim ke emaiku ya, ridho_ballack@yahoo.com
    thx

  2. villa apsara bali mengatakan...
     

    ungu band is the best.

Posting Komentar



Posting Komentar